Just Want to See (version 2)

Michael Timmins


Chords:
Em: 022000
G: 320033
C: -32010
D5: --023-
Am: -02210
F: 133211

Em                  G      C
--------------------------------------------|
--------------------------------------------|
----------------------------0---------------|
-2-2-----2-2---2-0---0-0-0--2---0h2-0-0-0-0-|
-2-2-----2-2---2-2---2-2-2--3-x-0---0-3-2-0-|
-0-0-x-x-0-0-x-0-3---3-3-3------------------|

Note: Sometimes Michael hits the G string when playing this riff, it's meant to be played in a 'dirty' sort of way.

[D5] Tommy, are you ready, we [G] better head to town
[C] J.D.'s box is waiting to be [Am] lowered down
and you [F] know how he [D5] hates to be kept [Am] waiting 'round

[G] [G] [G] [G] (stacatto)

-----------------------------------------|
-----------------------------------------|
-----------------------------------------|
-----------------7-7b8-7-----5h7-5-------|
-7---7-7----7-10-------------------7\1/2-|
---------10------------------------------|

(Slow bend while strumming)
--------------------------------------------------------|
--------------------------------------------------10b11-|
----------------------------7-9-9-9-9b10--7h9-9-9-9b10--|
-7h8p7--------------------------------------------------|
--------8-7-----------10/7------------------------------|
--------------8-7/10------------------------------------|

Order:
Verse riff x9
Chorus
Verse riff x7
Chorus
Solo
Verse riff x5
Chorus
End of E5

Tabbed by Ryan Kinal: It's played on an electric with a slightly distorted tone.

 

Please send corrections to Bob
Last Update: July 12, 2004
Return to the Main Tabs Page